Page 1 sur 1

Résolu : Durex Play 2006 - 2009

Publié : lun. 03 juil. 2006, 00:07
par louison
salut je cherche la musique de la nouvelle pub de durex en simulation de mariage, je ne c'est plus le nom, mais c'est un anneau vibrant. :lol:

Publié : lun. 03 juil. 2006, 00:09
par shadow's lisa
Bonsoir,

C'est pour "Play Vibration"


:P

Publié : lun. 31 juil. 2006, 17:50
par shadow's lisa
Bonjour,



Concernant votre demande sur la musique des films Durex "Play Lube" et "Vibrations" :


La musique n’a pas de titre

Le compositeur et l’éditeur sont : TRAFALGAR

Et le pays dans lequel la musique a été composée est l’Espagne.




:arrow: Titre non commercialisé



Merci à Marie-Christine de l'agence McCann et au Service Consommateur Durex :bowdown: :heureux:

Publié : lun. 31 juil. 2006, 17:54
par leZubial
Sinon vous les avez essayé .... ?



:P

Publié : lun. 31 juil. 2006, 18:14
par shadow's lisa
ça a un drôle de goût :mrgreen:





Image

Publié : jeu. 14 juin 2007, 06:30
par Dell
Je ne sais pas le nom mais j'ai ecrit un "Guitar Tab" pour lui:
e----2-----4-----4---4----
B----2-----4-----5---5----
G----2-----4-----4---4----
D----2-----4-----6---6----
A----4-----6---4----4-----
E--2-----4----------------

e-----2----4---4-4--4-4---
B-----2----4---4-5--5-4h5-
G-----2----4---4-4--4-4---
D-----2----4---6-6--6-6---
A-----4----6---4-4--4-4---
E--2-----4----------------

Publié : jeu. 14 juin 2007, 13:55
par shadow's lisa
Bonjour et bienvenue :bye1:





merci pour cet effort :thumbsup:

Les mélomanes sauront apprécier :P